ISO-10303-21;
HEADER;
/* Generated by software containing ST-Developer
 * from STEP Tools, Inc. (www.steptools.com) 
 */

FILE_DESCRIPTION(
/* description */ (''),
/* implementation_level */ '2;1');

FILE_NAME(
/* name */ '',
/* time_stamp */ '2023-08-15T14:26:03+07:00',
/* author */ ('zeta-09'),
/* organization */ (''),
/* preprocessor_version */ 'ST-DEVELOPER v19.2',
/* originating_system */ 'Autodesk Inventor 2024',
/* authorisation */ '');

FILE_SCHEMA (('AUTOMOTIVE_DESIGN { 1 0 10303 214 3 1 1 }'));
ENDSEC;

DATA;
#10=MECHANICAL_DESIGN_GEOMETRIC_PRESENTATION_REPRESENTATION('',(#60,#61,
#62,#63,#64),#138);
#11=SHAPE_REPRESENTATION_RELATIONSHIP('SRR','None',#145,#12);
#12=ADVANCED_BREP_SHAPE_REPRESENTATION('',(#13),#137);
#13=MANIFOLD_SOLID_BREP('\X2\04220432043504400434043E0435\X0\ \X2\04420435043B043E\X0\1',
#69);
#14=LINE('',#128,#16);
#15=LINE('',#134,#17);
#16=VECTOR('',#110,20.);
#17=VECTOR('',#119,25.);
#18=CYLINDRICAL_SURFACE('',#95,20.);
#19=CYLINDRICAL_SURFACE('',#99,25.);
#20=FACE_BOUND('',#27,.T.);
#21=FACE_BOUND('',#30,.T.);
#22=FACE_OUTER_BOUND('',#26,.T.);
#23=FACE_OUTER_BOUND('',#28,.T.);
#24=FACE_OUTER_BOUND('',#29,.T.);
#25=FACE_OUTER_BOUND('',#31,.T.);
#26=EDGE_LOOP('',(#46));
#27=EDGE_LOOP('',(#47));
#28=EDGE_LOOP('',(#48,#49,#50,#51));
#29=EDGE_LOOP('',(#52));
#30=EDGE_LOOP('',(#53));
#31=EDGE_LOOP('',(#54,#55,#56,#57));
#32=CIRCLE('',#93,25.);
#33=CIRCLE('',#94,20.);
#34=CIRCLE('',#96,20.);
#35=CIRCLE('',#98,25.);
#36=VERTEX_POINT('',#122);
#37=VERTEX_POINT('',#124);
#38=VERTEX_POINT('',#127);
#39=VERTEX_POINT('',#131);
#40=EDGE_CURVE('',#36,#36,#32,.T.);
#41=EDGE_CURVE('',#37,#37,#33,.T.);
#42=EDGE_CURVE('',#37,#38,#14,.T.);
#43=EDGE_CURVE('',#38,#38,#34,.T.);
#44=EDGE_CURVE('',#39,#39,#35,.T.);
#45=EDGE_CURVE('',#36,#39,#15,.T.);
#46=ORIENTED_EDGE('',*,*,#40,.T.);
#47=ORIENTED_EDGE('',*,*,#41,.F.);
#48=ORIENTED_EDGE('',*,*,#41,.T.);
#49=ORIENTED_EDGE('',*,*,#42,.T.);
#50=ORIENTED_EDGE('',*,*,#43,.F.);
#51=ORIENTED_EDGE('',*,*,#42,.F.);
#52=ORIENTED_EDGE('',*,*,#44,.F.);
#53=ORIENTED_EDGE('',*,*,#43,.T.);
#54=ORIENTED_EDGE('',*,*,#40,.F.);
#55=ORIENTED_EDGE('',*,*,#45,.T.);
#56=ORIENTED_EDGE('',*,*,#44,.T.);
#57=ORIENTED_EDGE('',*,*,#45,.F.);
#58=PLANE('',#92);
#59=PLANE('',#97);
#60=STYLED_ITEM('',(#155),#65);
#61=STYLED_ITEM('',(#155),#66);
#62=STYLED_ITEM('',(#155),#67);
#63=STYLED_ITEM('',(#155),#68);
#64=STYLED_ITEM('',(#154),#13);
#65=ADVANCED_FACE('',(#22,#20),#58,.T.);
#66=ADVANCED_FACE('',(#23),#18,.F.);
#67=ADVANCED_FACE('',(#24,#21),#59,.T.);
#68=ADVANCED_FACE('',(#25),#19,.T.);
#69=CLOSED_SHELL('',(#65,#66,#67,#68));
#70=DERIVED_UNIT_ELEMENT(#73,1.);
#71=DERIVED_UNIT_ELEMENT(#140,-3.);
#72=DIMENSIONAL_EXPONENTS(0.,1.,0.,0.,0.,0.,0.);
#73=(
CONVERSION_BASED_UNIT('gram',#75)
MASS_UNIT()
NAMED_UNIT(#72)
);
#74=(
MASS_UNIT()
NAMED_UNIT(*)
SI_UNIT(.KILO.,.GRAM.)
);
#75=MASS_MEASURE_WITH_UNIT(MASS_MEASURE(0.001),#74);
#76=DERIVED_UNIT((#70,#71));
#77=MEASURE_REPRESENTATION_ITEM('density measure',
POSITIVE_RATIO_MEASURE(1.),#76);
#78=PROPERTY_DEFINITION_REPRESENTATION(#83,#80);
#79=PROPERTY_DEFINITION_REPRESENTATION(#84,#81);
#80=REPRESENTATION('material name',(#82),#137);
#81=REPRESENTATION('density',(#77),#137);
#82=DESCRIPTIVE_REPRESENTATION_ITEM('\X2\04220438043F043E0432044B0435\X0\',
'\X2\04220438043F043E0432044B0435\X0\');
#83=PROPERTY_DEFINITION('material property','material name',#147);
#84=PROPERTY_DEFINITION('material property','density of part',#147);
#85=DATE_TIME_ROLE('creation_date');
#86=APPLIED_DATE_AND_TIME_ASSIGNMENT(#87,#85,(#147));
#87=DATE_AND_TIME(#88,#89);
#88=CALENDAR_DATE(2023,15,8);
#89=LOCAL_TIME(0,0,0.,#90);
#90=COORDINATED_UNIVERSAL_TIME_OFFSET(0,0,.BEHIND.);
#91=AXIS2_PLACEMENT_3D('',#120,#100,#101);
#92=AXIS2_PLACEMENT_3D('',#121,#102,#103);
#93=AXIS2_PLACEMENT_3D('',#123,#104,#105);
#94=AXIS2_PLACEMENT_3D('',#125,#106,#107);
#95=AXIS2_PLACEMENT_3D('',#126,#108,#109);
#96=AXIS2_PLACEMENT_3D('',#129,#111,#112);
#97=AXIS2_PLACEMENT_3D('',#130,#113,#114);
#98=AXIS2_PLACEMENT_3D('',#132,#115,#116);
#99=AXIS2_PLACEMENT_3D('',#133,#117,#118);
#100=DIRECTION('axis',(0.,0.,1.));
#101=DIRECTION('refdir',(1.,0.,0.));
#102=DIRECTION('center_axis',(0.,1.,0.));
#103=DIRECTION('ref_axis',(0.,0.,1.));
#104=DIRECTION('center_axis',(0.,1.,0.));
#105=DIRECTION('ref_axis',(1.,0.,0.));
#106=DIRECTION('center_axis',(0.,1.,0.));
#107=DIRECTION('ref_axis',(1.,0.,0.));
#108=DIRECTION('center_axis',(0.,1.,0.));
#109=DIRECTION('ref_axis',(-1.,0.,0.));
#110=DIRECTION('',(0.,-1.,0.));
#111=DIRECTION('center_axis',(0.,1.,0.));
#112=DIRECTION('ref_axis',(1.,0.,0.));
#113=DIRECTION('center_axis',(0.,-1.,0.));
#114=DIRECTION('ref_axis',(0.,0.,-1.));
#115=DIRECTION('center_axis',(0.,1.,0.));
#116=DIRECTION('ref_axis',(1.,0.,0.));
#117=DIRECTION('center_axis',(0.,1.,0.));
#118=DIRECTION('ref_axis',(-1.,0.,0.));
#119=DIRECTION('',(0.,-1.,0.));
#120=CARTESIAN_POINT('',(0.,0.,0.));
#121=CARTESIAN_POINT('Origin',(-20.,2.,0.));
#122=CARTESIAN_POINT('',(25.,2.,-3.06161699786838E-15));
#123=CARTESIAN_POINT('Origin',(0.,2.,0.));
#124=CARTESIAN_POINT('',(20.,2.,-2.44929359829471E-15));
#125=CARTESIAN_POINT('Origin',(0.,2.,0.));
#126=CARTESIAN_POINT('Origin',(0.,1.,0.));
#127=CARTESIAN_POINT('',(20.,8.32667268468867E-16,-2.44929359829471E-15));
#128=CARTESIAN_POINT('',(20.,1.,-2.44929359829471E-15));
#129=CARTESIAN_POINT('Origin',(0.,8.32667268468867E-16,0.));
#130=CARTESIAN_POINT('Origin',(-25.,0.,0.));
#131=CARTESIAN_POINT('',(25.,0.,-3.06161699786838E-15));
#132=CARTESIAN_POINT('Origin',(0.,0.,0.));
#133=CARTESIAN_POINT('Origin',(0.,1.,0.));
#134=CARTESIAN_POINT('',(25.,1.,-3.06161699786838E-15));
#135=UNCERTAINTY_MEASURE_WITH_UNIT(LENGTH_MEASURE(0.01),#139,
'DISTANCE_ACCURACY_VALUE',
'Maximum model space distance between geometric entities at asserted c
onnectivities');
#136=UNCERTAINTY_MEASURE_WITH_UNIT(LENGTH_MEASURE(0.01),#139,
'DISTANCE_ACCURACY_VALUE',
'Maximum model space distance between geometric entities at asserted c
onnectivities');
#137=(
GEOMETRIC_REPRESENTATION_CONTEXT(3)
GLOBAL_UNCERTAINTY_ASSIGNED_CONTEXT((#135))
GLOBAL_UNIT_ASSIGNED_CONTEXT((#139,#141,#142))
REPRESENTATION_CONTEXT('','3D')
);
#138=(
GEOMETRIC_REPRESENTATION_CONTEXT(3)
GLOBAL_UNCERTAINTY_ASSIGNED_CONTEXT((#136))
GLOBAL_UNIT_ASSIGNED_CONTEXT((#139,#141,#142))
REPRESENTATION_CONTEXT('','3D')
);
#139=(
LENGTH_UNIT()
NAMED_UNIT(*)
SI_UNIT(.MILLI.,.METRE.)
);
#140=(
LENGTH_UNIT()
NAMED_UNIT(*)
SI_UNIT(.CENTI.,.METRE.)
);
#141=(
NAMED_UNIT(*)
PLANE_ANGLE_UNIT()
SI_UNIT($,.RADIAN.)
);
#142=(
NAMED_UNIT(*)
SI_UNIT($,.STERADIAN.)
SOLID_ANGLE_UNIT()
);
#143=SHAPE_DEFINITION_REPRESENTATION(#144,#145);
#144=PRODUCT_DEFINITION_SHAPE('',$,#147);
#145=SHAPE_REPRESENTATION('',(#91),#137);
#146=PRODUCT_DEFINITION_CONTEXT('part definition',#151,'design');
#147=PRODUCT_DEFINITION('\X2\0414043504420430043B044C\X0\4',
'\X2\0414043504420430043B044C\X0\4',#148,#146);
#148=PRODUCT_DEFINITION_FORMATION('',$,#153);
#149=PRODUCT_RELATED_PRODUCT_CATEGORY('\X2\0414043504420430043B044C\X0\4',
'\X2\0414043504420430043B044C\X0\4',(#153));
#150=APPLICATION_PROTOCOL_DEFINITION('international standard',
'automotive_design',2009,#151);
#151=APPLICATION_CONTEXT(
'Core Data for Automotive Mechanical Design Process');
#152=PRODUCT_CONTEXT('part definition',#151,'mechanical');
#153=PRODUCT('\X2\0414043504420430043B044C\X0\4','\X2\0414043504420430043B044C\X0\4',
$,(#152));
#154=PRESENTATION_STYLE_ASSIGNMENT((#156));
#155=PRESENTATION_STYLE_ASSIGNMENT((#157));
#156=SURFACE_STYLE_USAGE(.BOTH.,#162);
#157=SURFACE_STYLE_USAGE(.BOTH.,#163);
#158=SURFACE_STYLE_RENDERING_WITH_PROPERTIES($,#170,(#160));
#159=SURFACE_STYLE_RENDERING_WITH_PROPERTIES($,#171,(#161));
#160=SURFACE_STYLE_TRANSPARENT(0.);
#161=SURFACE_STYLE_TRANSPARENT(0.);
#162=SURFACE_SIDE_STYLE('',(#164,#158));
#163=SURFACE_SIDE_STYLE('',(#165,#159));
#164=SURFACE_STYLE_FILL_AREA(#166);
#165=SURFACE_STYLE_FILL_AREA(#167);
#166=FILL_AREA_STYLE('',(#168));
#167=FILL_AREA_STYLE('',(#169));
#168=FILL_AREA_STYLE_COLOUR('',#170);
#169=FILL_AREA_STYLE_COLOUR('',#171);
#170=COLOUR_RGB('',0.749019607843137,0.749019607843137,0.749019607843137);
#171=COLOUR_RGB('',0.945098039215686,0.949019607843137,0.972549019607843);
ENDSEC;
END-ISO-10303-21;
